Jdi na obsah Jdi na menu
 


Black Sabath-Paranoid

3. 10. 2006

Riff1

e----------------------|---------------------------|
B----------------------|---------------------------|
G----------------------|--------7h-9--------7------|
D---7h9----7h9----7h9--|--7h-9--------7h-9-----9---|
A---7------7------7----|---------------------------|
E----------------------|---------------------------|

[Intro]
Riff1 (guitar)
Riff1 (guitar)
Riff1 (guitar + bass + drums)
Riff1 (guitar + bass + drums)

Riff2 (verse)
|--------------------------|--------------------------|
|--------------------------|--------------------------|
|--------------------------|--------------------------|
|--9--9--9--9--9--9--9--9--|--9--9--9--9--9--9--9--9--|
|--7--7--7--7--7--7--7--7--|--7--7--7--7--7--7--7--7--|
|--------------------------|--------------------------|
   e5                         e5
--------------------------|------------------------|
--------------------------|------------------------|
--------------------------|--12--7------9----12----|
--7--7--7--7--7--7--7--7--|--12--7------9----12----|
--5--5--5--5--5--5--5--5--|--10--5------7----10----|
--------------------------|------------------------|
  D5                         g5  D5     e5   g5

e5                               D5               g5   D5 e5    g5
Finished with my woman cause she couldn't help me with my mind_
e5                               D5            g5  D5  e5    g5
People think I'm in_sane because I am frowning all the time_

e5    C5  D5  e5  (2x)

e5                                 D5               g5 D5 e5    g5
All day long I think of things but nothing seems to satisfy_
e5                                 D5                g5 D5 e5    g5
Think I'll lose my mind if I don't find something to pacify_

e5                 D5                  e5                  D5
Can you help_ me_?    Are_ you_ for my brain___?  Ooo_oooh yeaheah!

e5                                 D5              g5  D5  e5    g5   (2x)

e5                            D5                  g5 D5   e5    g5
I need someone to show me the things in life that I can't find_
e5                                    D5          g5   D5 e5    g5
I can't see the things that make true happiness I must be blind_

[Solo]
e5                                 D5              g5  D5  e5    g5   (4x)

e5                                 D5              g5  D5  e5    g5   (2x)

e5                              D5                 g5 D5  e5    g5
Make a joke and I will sigh and you will laugh and I will cry_
e5                           D5           g5 D5  e5    g5
Happiness I cannot feel and love to me is so unreal_

e5    C5  D5  e5   (2x)

e5                                D5           g5 D5  e5    g5
And so as you hear these words telling you now of my state_
e5                       D5                 g5   D5  e5    g5
I tell you to enjoy life I wish I could but it's too late_

e5                                 D5              g5  D5  e5    g5   (2x)

Solo
   1  + 2  + 3 + 4 +   1 + 2 +  3 +  4 +   1  +  2  +  3  + 4 +
e|-------------------|-------------------|----------------------|
B|-------------------|-------------------|----------------------|
G|-12p9----9---------|-----9----9--------|----------------------|
D|------12-----------|-------12---12-9---|----------------------|
A|-------------------|-------------------|-10h12-10h12-10\7-7---|
E|-------------------|-------------------|----------------------|
   e5                  e5                  D5

   1  + 2 + 3 + 4 +   1 +  2 + 3 + 4 +   1 + 2 +    3  +   4   +
e|------------------|------------------|---------------------------|
B|------------------|------------------|-----8-10-10b12r10p8-10b12=|
G|------------------|----------7h9-9---|-7-9-----------------------|
D|------------------|------7h9---------|---------------------------|
A|-10-7---7---------|-7h10-------------|---------------------------|
E|------------------|------------------|---------------------------|
   g5 D5 e5  g5       e5                 e5

   1   + 2 + 3 + 4 +   1 + 2 + 3 +  4  +    1 + 2 + 3 + 4  +  
e|-------------------|--------------------|-------------------|
B|=r10p8-10--8-------|--------------17-15-|-17----17----17-15-|
G|-------------9-9-9-|-7-9-9-9-9/16-------|-------------------|
D|-------------------|--------------------|-------------------|
A|-------------------|--------------------|-------------------|
E|-------------------|--------------------|-------------------|
   D5                  g5 D5 e5  g5         e5

     1  +  2  +  3   +     4     +    1     +  2     +  3  +  4     +
e|-17b19-17b19-17b19r17p15-17p15----|-15p12----------------------------|
B|-------------------------------17-|-------15-15p12-------------------|
G|----------------------------------|----------------14-12-14-14p12----|
D|----------------------------------|-------------------------------14-|
A|----------------------------------|----------------------------------|
E|----------------------------------|----------------------------------|
   e5                                 D5

   1  +  2  +    3   +  4 +     1  + 2     +     3  +  4     +
e|--------------------------|-----------------------------------|
B|--------------------------|-----------------------------------|
G|-12----12-14b16r14-12-----|-14b16--12h14p12----12-------------|
D|----14--------------------|-----------------14----14----------|
A|--------------------------|--------------------------12h13h14-|
E|--------------------------|-----------------------------------|
   g5 D5 e5  g5               e5

   1 + 2  +  3     +  4     +    1 + 2  +  3  +  4 +   1  + 2 + 3
e|-----------------------------|---------------------|-------------|
B|-----------------------------|---------------------|-------------|
G|-----------------------------|-----------12--------|-------------|
D|-12--------------------------|-12--12-14----14-12--|-14-12----14-|
A|-----14-12-14p12----12h13h14-|---------------------|-------------|
E|-----------------15----------|---------------------|-------------|
   e5                            D5                    g5 D5 e5  g5

Chords:
e5 x799xx
D5 x577xx
g5 x(10)(12)(12)xx
C5 x355xx

 

Komentáře

Přidat komentář

Přehled komentářů

dik

(Zapik, 14. 5. 2008 16:54)

Diky tento tabulator jsem hledal, Black Sabath- Paranoid je ma onlibena pisnicka...

Ehm

(Vraccas, 27. 10. 2006 11:09)

no tak v kytarách se moc nevyznám.